ISO-10303-21;
HEADER;
FILE_DESCRIPTION(('Creo Elements/Direct Modeling STEP Export'),'2;1');
FILE_NAME('C:/temp/0lndrr04ol4ne682948/0lndrr04ol4ne692948',
'2019-01-10T 9:29:49',(''),(''),
'PTC Creo Elements/Direct Modeling STEP processor for AP214 (Solid Model
)',
'PTC Creo Elements/Direct Modeling 19.0B  21-Mar-2015 (C) Parametric Tec
hnology GmbH','');
FILE_SCHEMA(('AUTOMOTIVE_DESIGN { 1 0 10303 214 1 1 1 1 }'));
ENDSEC;
DATA;
#10=CARTESIAN_POINT('',(0.,0.,0.));
#20=DIRECTION('',(0.,0.,1.));
#30=DIRECTION('',(1.,0.,0.));
#40=AXIS2_PLACEMENT_3D('',#10,#20,#30);
#50=PLANE('',#40);
#60=CARTESIAN_POINT('',(39.,54.,0.));
#70=DIRECTION('',(0.,0.,-1.));
#80=DIRECTION('',(-1.,0.,0.));
#90=AXIS2_PLACEMENT_3D('',#60,#70,#80);
#100=CIRCLE('',#90,2.43867513459481);
#110=CARTESIAN_POINT('',(41.4386751345948,54.,0.));
#120=VERTEX_POINT('',#110);
#130=CARTESIAN_POINT('',(36.5613248654052,54.,0.));
#140=VERTEX_POINT('',#130);
#150=EDGE_CURVE('',#120,#140,#100,.T.);
#160=ORIENTED_EDGE('',*,*,#150,.F.);
#170=EDGE_CURVE('',#140,#120,#100,.T.);
#180=ORIENTED_EDGE('',*,*,#170,.F.);
#190=EDGE_LOOP('',(#180,#160));
#200=FACE_BOUND('',#190,.T.);
#210=CARTESIAN_POINT('',(39.,54.,0.));
#220=DIRECTION('',(0.,0.,1.));
#230=DIRECTION('',(1.,0.,0.));
#240=AXIS2_PLACEMENT_3D('',#210,#220,#230);
#250=CIRCLE('',#240,3.5);
#260=CARTESIAN_POINT('',(42.5,54.,0.));
#270=VERTEX_POINT('',#260);
#280=CARTESIAN_POINT('',(35.5,54.,0.));
#290=VERTEX_POINT('',#280);
#300=EDGE_CURVE('',#270,#290,#250,.T.);
#310=ORIENTED_EDGE('',*,*,#300,.F.);
#320=EDGE_CURVE('',#290,#270,#250,.T.);
#330=ORIENTED_EDGE('',*,*,#320,.F.);
#340=EDGE_LOOP('',(#330,#310));
#350=FACE_OUTER_BOUND('',#340,.T.);
#360=ADVANCED_FACE('',(#200,#350),#50,.F.);
#370=CARTESIAN_POINT('',(39.,54.,0.));
#380=DIRECTION('',(0.,0.,-1.));
#390=DIRECTION('',(-1.,0.,0.));
#400=AXIS2_PLACEMENT_3D('',#370,#380,#390);
#410=CONICAL_SURFACE('',#400,2.43867513459481,0.523598775598296);
#420=CARTESIAN_POINT('',(36.5613248654052,54.,0.));
#430=DIRECTION('',(-0.499999999999998,0.,-0.86602540378444));
#440=VECTOR('',#430,4.87735026918964);
#450=LINE('',#420,#440);
#460=CARTESIAN_POINT('',(36.85,54.,0.5));
#470=VERTEX_POINT('',#460);
#480=EDGE_CURVE('',#470,#140,#450,.T.);
#490=ORIENTED_EDGE('',*,*,#480,.T.);
#500=CARTESIAN_POINT('',(39.,54.,0.5));
#510=DIRECTION('',(0.,0.,-1.));
#520=DIRECTION('',(-1.,0.,0.));
#530=AXIS2_PLACEMENT_3D('',#500,#510,#520);
#540=CIRCLE('',#530,2.15);
#550=CARTESIAN_POINT('',(41.15,54.,0.5));
#560=VERTEX_POINT('',#550);
#570=EDGE_CURVE('',#470,#560,#540,.T.);
#580=ORIENTED_EDGE('',*,*,#570,.F.);
#590=CARTESIAN_POINT('',(41.4386751345948,54.,0.));
#600=DIRECTION('',(0.499999999999998,0.,-0.86602540378444));
#610=VECTOR('',#600,4.87735026918964);
#620=LINE('',#590,#610);
#630=EDGE_CURVE('',#560,#120,#620,.T.);
#640=ORIENTED_EDGE('',*,*,#630,.F.);
#650=ORIENTED_EDGE('',*,*,#170,.T.);
#660=EDGE_LOOP('',(#650,#640,#580,#490));
#670=FACE_OUTER_BOUND('',#660,.T.);
#680=ADVANCED_FACE('',(#670),#410,.F.);
#690=CARTESIAN_POINT('',(39.,54.,0.));
#700=DIRECTION('',(0.,0.,-1.));
#710=DIRECTION('',(-1.,0.,0.));
#720=AXIS2_PLACEMENT_3D('',#690,#700,#710);
#730=CONICAL_SURFACE('',#720,2.43867513459481,0.523598775598296);
#740=ORIENTED_EDGE('',*,*,#150,.T.);
#750=ORIENTED_EDGE('',*,*,#630,.T.);
#760=EDGE_CURVE('',#560,#470,#540,.T.);
#770=ORIENTED_EDGE('',*,*,#760,.F.);
#780=ORIENTED_EDGE('',*,*,#480,.F.);
#790=EDGE_LOOP('',(#780,#770,#750,#740));
#800=FACE_OUTER_BOUND('',#790,.T.);
#810=ADVANCED_FACE('',(#800),#730,.F.);
#820=CARTESIAN_POINT('',(39.,54.,25.));
#830=DIRECTION('',(0.,0.,1.));
#840=DIRECTION('',(1.,0.,0.));
#850=AXIS2_PLACEMENT_3D('',#820,#830,#840);
#860=TOROIDAL_SURFACE('',#850,1.3,1.);
#870=CARTESIAN_POINT('',(37.7,54.,25.));
#880=DIRECTION('',(0.,-1.,0.));
#890=DIRECTION('',(-1.,0.,0.));
#900=AXIS2_PLACEMENT_3D('',#870,#880,#890);
#910=CIRCLE('',#900,1.);
#920=CARTESIAN_POINT('',(37.7,54.,26.));
#930=VERTEX_POINT('',#920);
#940=CARTESIAN_POINT('',(36.7,54.,25.));
#950=VERTEX_POINT('',#940);
#960=EDGE_CURVE('',#930,#950,#910,.T.);
#970=ORIENTED_EDGE('',*,*,#960,.F.);
#980=CARTESIAN_POINT('',(39.,54.,25.));
#990=DIRECTION('',(0.,0.,1.));
#1000=DIRECTION('',(1.,0.,0.));
#1010=AXIS2_PLACEMENT_3D('',#980,#990,#1000);
#1020=CIRCLE('',#1010,2.3);
#1030=CARTESIAN_POINT('',(41.3,54.,25.));
#1040=VERTEX_POINT('',#1030);
#1050=EDGE_CURVE('',#1040,#950,#1020,.T.);
#1060=ORIENTED_EDGE('',*,*,#1050,.T.);
#1070=CARTESIAN_POINT('',(40.3,54.,25.));
#1080=DIRECTION('',(0.,1.,0.));
#1090=DIRECTION('',(1.,0.,0.));
#1100=AXIS2_PLACEMENT_3D('',#1070,#1080,#1090);
#1110=CIRCLE('',#1100,1.);
#1120=CARTESIAN_POINT('',(40.3,54.,26.));
#1130=VERTEX_POINT('',#1120);
#1140=EDGE_CURVE('',#1130,#1040,#1110,.T.);
#1150=ORIENTED_EDGE('',*,*,#1140,.T.);
#1160=CARTESIAN_POINT('',(39.,54.,26.));
#1170=DIRECTION('',(0.,0.,1.));
#1180=DIRECTION('',(1.,0.,0.));
#1190=AXIS2_PLACEMENT_3D('',#1160,#1170,#1180);
#1200=CIRCLE('',#1190,1.3);
#1210=EDGE_CURVE('',#1130,#930,#1200,.T.);
#1220=ORIENTED_EDGE('',*,*,#1210,.F.);
#1230=EDGE_LOOP('',(#1220,#1150,#1060,#970));
#1240=FACE_OUTER_BOUND('',#1230,.T.);
#1250=ADVANCED_FACE('',(#1240),#860,.T.);
#1260=CARTESIAN_POINT('',(39.,54.,14.278312163513));
#1270=DIRECTION('',(0.,0.,-1.));
#1280=DIRECTION('',(0.,-1.,0.));
#1290=AXIS2_PLACEMENT_3D('',#1260,#1270,#1280);
#1300=CONICAL_SURFACE('',#1290,3.4,1.0471975511966);
#1310=CARTESIAN_POINT('',(39.,54.,15.));
#1320=DIRECTION('',(0.,0.,-1.));
#1330=DIRECTION('',(0.,-1.,0.));
#1340=AXIS2_PLACEMENT_3D('',#1310,#1320,#1330);
#1350=CIRCLE('',#1340,2.15);
#1360=CARTESIAN_POINT('',(39.,56.15,15.));
#1370=VERTEX_POINT('',#1360);
#1380=CARTESIAN_POINT('',(41.15,54.,15.));
#1390=VERTEX_POINT('',#1380);
#1400=EDGE_CURVE('',#1370,#1390,#1350,.T.);
#1410=ORIENTED_EDGE('',*,*,#1400,.T.);
#1420=CARTESIAN_POINT('',(39.,57.4,14.278312163513));
#1430=DIRECTION('',(0.,0.866025403784438,-0.500000000000001));
#1440=VECTOR('',#1430,3.92598183048946);
#1450=LINE('',#1420,#1440);
#1460=CARTESIAN_POINT('',(39.,54.,16.2413030787577));
#1470=VERTEX_POINT('',#1460);
#1480=EDGE_CURVE('',#1470,#1370,#1450,.T.);
#1490=ORIENTED_EDGE('',*,*,#1480,.T.);
#1500=CARTESIAN_POINT('',(39.,50.6,14.278312163513));
#1510=DIRECTION('',(0.,-0.866025403784438,-0.500000000000001));
#1520=VECTOR('',#1510,3.92598183048946);
#1530=LINE('',#1500,#1520);
#1540=CARTESIAN_POINT('',(39.,51.85,15.));
#1550=VERTEX_POINT('',#1540);
#1560=EDGE_CURVE('',#1470,#1550,#1530,.T.);
#1570=ORIENTED_EDGE('',*,*,#1560,.F.);
#1580=EDGE_CURVE('',#1390,#1550,#1350,.T.);
#1590=ORIENTED_EDGE('',*,*,#1580,.T.);
#1600=EDGE_LOOP('',(#1590,#1570,#1490,#1410));
#1610=FACE_OUTER_BOUND('',#1600,.T.);
#1620=ADVANCED_FACE('',(#1610),#1300,.F.);
#1630=CARTESIAN_POINT('',(39.,54.,0.));
#1640=DIRECTION('',(0.,0.,-1.));
#1650=DIRECTION('',(1.,0.,0.));
#1660=AXIS2_PLACEMENT_3D('',#1630,#1640,#1650);
#1670=CYLINDRICAL_SURFACE('',#1660,2.15);
#1680=CARTESIAN_POINT('',(36.85,54.,15.));
#1690=VERTEX_POINT('',#1680);
#1700=EDGE_CURVE('',#1550,#1690,#1350,.T.);
#1710=ORIENTED_EDGE('',*,*,#1700,.F.);
#1720=CARTESIAN_POINT('',(36.85,54.,0.));
#1730=DIRECTION('',(0.,0.,-1.));
#1740=VECTOR('',#1730,1.);
#1750=LINE('',#1720,#1740);
#1760=EDGE_CURVE('',#1690,#470,#1750,.T.);
#1770=ORIENTED_EDGE('',*,*,#1760,.F.);
#1780=ORIENTED_EDGE('',*,*,#760,.T.);
#1790=CARTESIAN_POINT('',(41.15,54.,0.));
#1800=DIRECTION('',(0.,0.,-1.));
#1810=VECTOR('',#1800,1.);
#1820=LINE('',#1790,#1810);
#1830=EDGE_CURVE('',#1390,#560,#1820,.T.);
#1840=ORIENTED_EDGE('',*,*,#1830,.T.);
#1850=ORIENTED_EDGE('',*,*,#1580,.F.);
#1860=EDGE_LOOP('',(#1850,#1840,#1780,#1770,#1710));
#1870=FACE_OUTER_BOUND('',#1860,.T.);
#1880=ADVANCED_FACE('',(#1870),#1670,.F.);
#1890=CARTESIAN_POINT('',(39.,54.,18.));
#1900=DIRECTION('',(0.,0.,1.));
#1910=DIRECTION('',(-1.,0.,0.));
#1920=AXIS2_PLACEMENT_3D('',#1890,#1900,#1910);
#1930=CYLINDRICAL_SURFACE('',#1920,2.3);
#1940=CARTESIAN_POINT('',(36.7,54.,18.));
#1950=DIRECTION('',(0.,0.,1.));
#1960=VECTOR('',#1950,1.);
#1970=LINE('',#1940,#1960);
#1980=CARTESIAN_POINT('',(36.7,54.,18.3));
#1990=VERTEX_POINT('',#1980);
#2000=EDGE_CURVE('',#1990,#950,#1970,.T.);
#2010=ORIENTED_EDGE('',*,*,#2000,.T.);
#2020=CARTESIAN_POINT('',(39.,54.,18.3));
#2030=DIRECTION('',(0.,0.,1.));
#2040=DIRECTION('',(1.,0.,0.));
#2050=AXIS2_PLACEMENT_3D('',#2020,#2030,#2040);
#2060=CIRCLE('',#2050,2.3);
#2070=CARTESIAN_POINT('',(41.0184398923479,55.1026787387897,18.3));
#2080=VERTEX_POINT('',#2070);
#2090=EDGE_CURVE('',#2080,#1990,#2060,.T.);
#2100=ORIENTED_EDGE('',*,*,#2090,.T.);
#2110=CARTESIAN_POINT('',(41.3,54.,18.3));
#2120=VERTEX_POINT('',#2110);
#2130=EDGE_CURVE('',#2120,#2080,#2060,.T.);
#2140=ORIENTED_EDGE('',*,*,#2130,.T.);
#2150=CARTESIAN_POINT('',(41.3,54.,18.));
#2160=DIRECTION('',(0.,0.,1.));
#2170=VECTOR('',#2160,1.);
#2180=LINE('',#2150,#2170);
#2190=EDGE_CURVE('',#2120,#1040,#2180,.T.);
#2200=ORIENTED_EDGE('',*,*,#2190,.F.);
#2210=ORIENTED_EDGE('',*,*,#1050,.F.);
#2220=EDGE_LOOP('',(#2210,#2200,#2140,#2100,#2010));
#2230=FACE_OUTER_BOUND('',#2220,.T.);
#2240=ADVANCED_FACE('',(#2230),#1930,.T.);
#2250=CARTESIAN_POINT('',(39.,54.,26.));
#2260=DIRECTION('',(0.,0.,1.));
#2270=DIRECTION('',(-1.,0.,0.));
#2280=AXIS2_PLACEMENT_3D('',#2250,#2260,#2270);
#2290=PLANE('',#2280);
#2300=EDGE_CURVE('',#930,#1130,#1200,.T.);
#2310=ORIENTED_EDGE('',*,*,#2300,.T.);
#2320=ORIENTED_EDGE('',*,*,#1210,.T.);
#2330=EDGE_LOOP('',(#2320,#2310));
#2340=FACE_OUTER_BOUND('',#2330,.T.);
#2350=ADVANCED_FACE('',(#2340),#2290,.T.);
#2360=CARTESIAN_POINT('',(0.,0.,18.));
#2370=DIRECTION('',(0.,0.,1.));
#2380=DIRECTION('',(1.,0.,0.));
#2390=AXIS2_PLACEMENT_3D('',#2360,#2370,#2380);
#2400=PLANE('',#2390);
#2410=CARTESIAN_POINT('',(39.,54.,18.));
#2420=DIRECTION('',(0.,0.,1.));
#2430=DIRECTION('',(1.,0.,0.));
#2440=AXIS2_PLACEMENT_3D('',#2410,#2420,#2430);
#2450=CIRCLE('',#2440,2.6);
#2460=CARTESIAN_POINT('',(41.281714660915,55.2465064003709,18.));
#2470=VERTEX_POINT('',#2460);
#2480=CARTESIAN_POINT('',(36.4,54.,18.));
#2490=VERTEX_POINT('',#2480);
#2500=EDGE_CURVE('',#2470,#2490,#2450,.T.);
#2510=ORIENTED_EDGE('',*,*,#2500,.F.);
#2520=CARTESIAN_POINT('',(41.6,54.,18.));
#2530=VERTEX_POINT('',#2520);
#2540=EDGE_CURVE('',#2490,#2530,#2450,.T.);
#2550=ORIENTED_EDGE('',*,*,#2540,.F.);
#2560=EDGE_CURVE('',#2530,#2470,#2450,.T.);
#2570=ORIENTED_EDGE('',*,*,#2560,.F.);
#2580=EDGE_LOOP('',(#2570,#2550,#2510));
#2590=FACE_BOUND('',#2580,.T.);
#2600=CARTESIAN_POINT('',(39.,54.,18.));
#2610=DIRECTION('',(0.,0.,1.));
#2620=DIRECTION('',(1.,0.,0.));
#2630=AXIS2_PLACEMENT_3D('',#2600,#2610,#2620);
#2640=CIRCLE('',#2630,3.2);
#2650=CARTESIAN_POINT('',(42.2,54.,18.));
#2660=VERTEX_POINT('',#2650);
#2670=CARTESIAN_POINT('',(35.8,54.,18.));
#2680=VERTEX_POINT('',#2670);
#2690=EDGE_CURVE('',#2660,#2680,#2640,.T.);
#2700=ORIENTED_EDGE('',*,*,#2690,.T.);
#2710=EDGE_CURVE('',#2680,#2660,#2640,.T.);
#2720=ORIENTED_EDGE('',*,*,#2710,.T.);
#2730=EDGE_LOOP('',(#2720,#2700));
#2740=FACE_OUTER_BOUND('',#2730,.T.);
#2750=ADVANCED_FACE('',(#2590,#2740),#2400,.T.);
#2760=CARTESIAN_POINT('',(39.,54.,17.7));
#2770=DIRECTION('',(0.,0.,1.));
#2780=DIRECTION('',(1.,0.,0.));
#2790=AXIS2_PLACEMENT_3D('',#2760,#2770,#2780);
#2800=TOROIDAL_SURFACE('',#2790,3.2,0.3);
#2810=CARTESIAN_POINT('',(42.2,54.,17.7));
#2820=DIRECTION('',(0.,1.,0.));
#2830=DIRECTION('',(1.,0.,0.));
#2840=AXIS2_PLACEMENT_3D('',#2810,#2820,#2830);
#2850=CIRCLE('',#2840,0.3);
#2860=CARTESIAN_POINT('',(42.5,54.,17.7));
#2870=VERTEX_POINT('',#2860);
#2880=EDGE_CURVE('',#2660,#2870,#2850,.T.);
#2890=ORIENTED_EDGE('',*,*,#2880,.F.);
#2900=CARTESIAN_POINT('',(39.,54.,17.7));
#2910=DIRECTION('',(0.,0.,1.));
#2920=DIRECTION('',(1.,0.,0.));
#2930=AXIS2_PLACEMENT_3D('',#2900,#2910,#2920);
#2940=CIRCLE('',#2930,3.5);
#2950=CARTESIAN_POINT('',(35.5,54.,17.7));
#2960=VERTEX_POINT('',#2950);
#2970=EDGE_CURVE('',#2960,#2870,#2940,.T.);
#2980=ORIENTED_EDGE('',*,*,#2970,.T.);
#2990=CARTESIAN_POINT('',(35.8,54.,17.7));
#3000=DIRECTION('',(0.,-1.,0.));
#3010=DIRECTION('',(-1.,0.,0.));
#3020=AXIS2_PLACEMENT_3D('',#2990,#3000,#3010);
#3030=CIRCLE('',#3020,0.3);
#3040=EDGE_CURVE('',#2680,#2960,#3030,.T.);
#3050=ORIENTED_EDGE('',*,*,#3040,.T.);
#3060=ORIENTED_EDGE('',*,*,#2710,.F.);
#3070=EDGE_LOOP('',(#3060,#3050,#2980,#2890));
#3080=FACE_OUTER_BOUND('',#3070,.T.);
#3090=ADVANCED_FACE('',(#3080),#2800,.T.);
#3100=CARTESIAN_POINT('',(39.,54.,18.3));
#3110=DIRECTION('',(0.,0.,1.));
#3120=DIRECTION('',(1.,0.,0.));
#3130=AXIS2_PLACEMENT_3D('',#3100,#3110,#3120);
#3140=TOROIDAL_SURFACE('',#3130,2.6,0.3);
#3150=ORIENTED_EDGE('',*,*,#2090,.F.);
#3160=CARTESIAN_POINT('',(36.4,54.,18.3));
#3170=DIRECTION('',(0.,-1.,0.));
#3180=DIRECTION('',(-1.,0.,0.));
#3190=AXIS2_PLACEMENT_3D('',#3160,#3170,#3180);
#3200=CIRCLE('',#3190,0.3);
#3210=EDGE_CURVE('',#2490,#1990,#3200,.T.);
#3220=ORIENTED_EDGE('',*,*,#3210,.T.);
#3230=ORIENTED_EDGE('',*,*,#2500,.T.);
#3240=ORIENTED_EDGE('',*,*,#2560,.T.);
#3250=CARTESIAN_POINT('',(41.6,54.,18.3));
#3260=DIRECTION('',(0.,1.,0.));
#3270=DIRECTION('',(1.,0.,0.));
#3280=AXIS2_PLACEMENT_3D('',#3250,#3260,#3270);
#3290=CIRCLE('',#3280,0.3);
#3300=EDGE_CURVE('',#2530,#2120,#3290,.T.);
#3310=ORIENTED_EDGE('',*,*,#3300,.F.);
#3320=ORIENTED_EDGE('',*,*,#2130,.F.);
#3330=EDGE_LOOP('',(#3320,#3310,#3240,#3230,#3220,#3150));
#3340=FACE_OUTER_BOUND('',#3330,.T.);
#3350=ADVANCED_FACE('',(#3340),#3140,.F.);
#3360=CARTESIAN_POINT('',(39.,54.,18.));
#3370=DIRECTION('',(0.,0.,1.));
#3380=DIRECTION('',(-1.,0.,0.));
#3390=AXIS2_PLACEMENT_3D('',#3360,#3370,#3380);
#3400=CYLINDRICAL_SURFACE('',#3390,2.3);
#3410=EDGE_CURVE('',#950,#1040,#1020,.T.);
#3420=ORIENTED_EDGE('',*,*,#3410,.F.);
#3430=ORIENTED_EDGE('',*,*,#2190,.T.);
#3440=EDGE_CURVE('',#1990,#2120,#2060,.T.);
#3450=ORIENTED_EDGE('',*,*,#3440,.T.);
#3460=ORIENTED_EDGE('',*,*,#2000,.F.);
#3470=EDGE_LOOP('',(#3460,#3450,#3430,#3420));
#3480=FACE_OUTER_BOUND('',#3470,.T.);
#3490=ADVANCED_FACE('',(#3480),#3400,.T.);
#3500=CARTESIAN_POINT('',(39.,54.,0.));
#3510=DIRECTION('',(0.,0.,-1.));
#3520=DIRECTION('',(1.,0.,0.));
#3530=AXIS2_PLACEMENT_3D('',#3500,#3510,#3520);
#3540=CYLINDRICAL_SURFACE('',#3530,2.15);
#3550=ORIENTED_EDGE('',*,*,#1760,.T.);
#3560=EDGE_CURVE('',#1690,#1370,#1350,.T.);
#3570=ORIENTED_EDGE('',*,*,#3560,.F.);
#3580=ORIENTED_EDGE('',*,*,#1400,.F.);
#3590=ORIENTED_EDGE('',*,*,#1830,.F.);
#3600=ORIENTED_EDGE('',*,*,#570,.T.);
#3610=EDGE_LOOP('',(#3600,#3590,#3580,#3570,#3550));
#3620=FACE_OUTER_BOUND('',#3610,.T.);
#3630=ADVANCED_FACE('',(#3620),#3540,.F.);
#3640=CARTESIAN_POINT('',(39.,54.,14.278312163513));
#3650=DIRECTION('',(0.,0.,-1.));
#3660=DIRECTION('',(0.,-1.,0.));
#3670=AXIS2_PLACEMENT_3D('',#3640,#3650,#3660);
#3680=CONICAL_SURFACE('',#3670,3.4,1.0471975511966);
#3690=ORIENTED_EDGE('',*,*,#3560,.T.);
#3700=ORIENTED_EDGE('',*,*,#1700,.T.);
#3710=ORIENTED_EDGE('',*,*,#1560,.T.);
#3720=ORIENTED_EDGE('',*,*,#1480,.F.);
#3730=EDGE_LOOP('',(#3720,#3710,#3700,#3690));
#3740=FACE_OUTER_BOUND('',#3730,.T.);
#3750=ADVANCED_FACE('',(#3740),#3680,.F.);
#3760=CARTESIAN_POINT('',(39.,54.,18.3));
#3770=DIRECTION('',(0.,0.,1.));
#3780=DIRECTION('',(1.,0.,0.));
#3790=AXIS2_PLACEMENT_3D('',#3760,#3770,#3780);
#3800=TOROIDAL_SURFACE('',#3790,2.6,0.3);
#3810=ORIENTED_EDGE('',*,*,#2540,.T.);
#3820=ORIENTED_EDGE('',*,*,#3210,.F.);
#3830=ORIENTED_EDGE('',*,*,#3440,.F.);
#3840=ORIENTED_EDGE('',*,*,#3300,.T.);
#3850=EDGE_LOOP('',(#3840,#3830,#3820,#3810));
#3860=FACE_OUTER_BOUND('',#3850,.T.);
#3870=ADVANCED_FACE('',(#3860),#3800,.F.);
#3880=CARTESIAN_POINT('',(39.,54.,25.));
#3890=DIRECTION('',(0.,0.,1.));
#3900=DIRECTION('',(1.,0.,0.));
#3910=AXIS2_PLACEMENT_3D('',#3880,#3890,#3900);
#3920=TOROIDAL_SURFACE('',#3910,1.3,1.);
#3930=ORIENTED_EDGE('',*,*,#3410,.T.);
#3940=ORIENTED_EDGE('',*,*,#960,.T.);
#3950=ORIENTED_EDGE('',*,*,#2300,.F.);
#3960=ORIENTED_EDGE('',*,*,#1140,.F.);
#3970=EDGE_LOOP('',(#3960,#3950,#3940,#3930));
#3980=FACE_OUTER_BOUND('',#3970,.T.);
#3990=ADVANCED_FACE('',(#3980),#3920,.T.);
#4000=CARTESIAN_POINT('',(39.,54.,17.7));
#4010=DIRECTION('',(0.,0.,1.));
#4020=DIRECTION('',(1.,0.,0.));
#4030=AXIS2_PLACEMENT_3D('',#4000,#4010,#4020);
#4040=TOROIDAL_SURFACE('',#4030,3.2,0.3);
#4050=ORIENTED_EDGE('',*,*,#2690,.F.);
#4060=ORIENTED_EDGE('',*,*,#3040,.F.);
#4070=EDGE_CURVE('',#2870,#2960,#2940,.T.);
#4080=ORIENTED_EDGE('',*,*,#4070,.T.);
#4090=ORIENTED_EDGE('',*,*,#2880,.T.);
#4100=EDGE_LOOP('',(#4090,#4080,#4060,#4050));
#4110=FACE_OUTER_BOUND('',#4100,.T.);
#4120=ADVANCED_FACE('',(#4110),#4040,.T.);
#4130=CARTESIAN_POINT('',(39.,54.,0.));
#4140=DIRECTION('',(0.,0.,1.));
#4150=DIRECTION('',(1.,0.,0.));
#4160=AXIS2_PLACEMENT_3D('',#4130,#4140,#4150);
#4170=CYLINDRICAL_SURFACE('',#4160,3.5);
#4180=CARTESIAN_POINT('',(42.5,54.,0.));
#4190=DIRECTION('',(0.,0.,1.));
#4200=VECTOR('',#4190,1.);
#4210=LINE('',#4180,#4200);
#4220=EDGE_CURVE('',#270,#2870,#4210,.T.);
#4230=ORIENTED_EDGE('',*,*,#4220,.T.);
#4240=ORIENTED_EDGE('',*,*,#320,.T.);
#4250=CARTESIAN_POINT('',(35.5,54.,0.));
#4260=DIRECTION('',(0.,0.,1.));
#4270=VECTOR('',#4260,1.);
#4280=LINE('',#4250,#4270);
#4290=EDGE_CURVE('',#290,#2960,#4280,.T.);
#4300=ORIENTED_EDGE('',*,*,#4290,.F.);
#4310=ORIENTED_EDGE('',*,*,#2970,.F.);
#4320=EDGE_LOOP('',(#4310,#4300,#4240,#4230));
#4330=FACE_OUTER_BOUND('',#4320,.T.);
#4340=ADVANCED_FACE('',(#4330),#4170,.T.);
#4350=CARTESIAN_POINT('',(39.,54.,0.));
#4360=DIRECTION('',(0.,0.,1.));
#4370=DIRECTION('',(1.,0.,0.));
#4380=AXIS2_PLACEMENT_3D('',#4350,#4360,#4370);
#4390=CYLINDRICAL_SURFACE('',#4380,3.5);
#4400=ORIENTED_EDGE('',*,*,#4070,.F.);
#4410=ORIENTED_EDGE('',*,*,#4290,.T.);
#4420=ORIENTED_EDGE('',*,*,#300,.T.);
#4430=ORIENTED_EDGE('',*,*,#4220,.F.);
#4440=EDGE_LOOP('',(#4430,#4420,#4410,#4400));
#4450=FACE_OUTER_BOUND('',#4440,.T.);
#4460=ADVANCED_FACE('',(#4450),#4390,.T.);
#4470=CLOSED_SHELL('',(#4340,#4460,#1250,#1620,#1880,#2240,#2350,#2750,
#3090,#3350,#3490,#3630,#3750,#3870,#3990,#4120,#360,#680,#810));
#4480=MANIFOLD_SOLID_BREP('',#4470);
#4490=CARTESIAN_POINT('',(0.,0.,0.));
#4500=DIRECTION('',(0.,0.,1.));
#4510=DIRECTION('',(1.,0.,0.));
#4520=AXIS2_PLACEMENT_3D('',#4490,#4500,#4510);
#4530=APPLICATION_CONTEXT(' ');
#4540=APPLICATION_PROTOCOL_DEFINITION(' ','automotive_design',1998,#4530
);
#4550=PRODUCT_CONTEXT('',#4530,'mechanical');
#4560=PRODUCT_DEFINITION_CONTEXT('part definition',#4530,'design');
#4570=PRODUCT('CGT_10','CGT_10','',(#4550));
#4580=PRODUCT_RELATED_PRODUCT_CATEGORY('part',' ',(#4570));
#4590=PRODUCT_DEFINITION_FORMATION_WITH_SPECIFIED_SOURCE('','',#4570,
.BOUGHT.);
#4600=PRODUCT_DEFINITION('',' ',#4590,#4560);
#4610=PRODUCT_DEFINITION_SHAPE('','',#4600);
#4620=DIMENSIONAL_EXPONENTS(1.,0.,0.,0.,0.,0.,0.);
#4630=DIMENSIONAL_EXPONENTS(0.,0.,0.,0.,0.,0.,0.);
#4640=DIMENSIONAL_EXPONENTS(0.,0.,0.,0.,0.,0.,0.);
#4650=(LENGTH_UNIT() NAMED_UNIT(*) SI_UNIT(.MILLI.,.METRE.));
#4660=(NAMED_UNIT(*) PLANE_ANGLE_UNIT() SI_UNIT($,.RADIAN.));
#4670=(NAMED_UNIT(*) SI_UNIT($,.STERADIAN.) SOLID_ANGLE_UNIT());
#4680=(GEOMETRIC_REPRESENTATION_CONTEXT(3) 
GLOBAL_UNCERTAINTY_ASSIGNED_CONTEXT((#4690)) 
GLOBAL_UNIT_ASSIGNED_CONTEXT((#4650,#4660,#4670)) REPRESENTATION_CONTEXT
('',''));
#4690=UNCERTAINTY_MEASURE_WITH_UNIT(LENGTH_MEASURE(1.E-6),#4650,
'distance_accuracy_value','maximum gap value');
#4700=ADVANCED_BREP_SHAPE_REPRESENTATION('',(#4520,#4480),#4680);
#4710=SHAPE_DEFINITION_REPRESENTATION(#4610,#4700);
#4720=COLOUR_RGB('',0.784313797950745,0.784313797950745,
0.784313797950745);
#4730=FILL_AREA_STYLE_COLOUR('',#4720);
#4740=FILL_AREA_STYLE('',(#4730));
#4750=SURFACE_STYLE_FILL_AREA(#4740);
#4760=SURFACE_SIDE_STYLE('',(#4750));
#4770=SURFACE_STYLE_USAGE(.BOTH.,#4760);
#4780=PRESENTATION_STYLE_ASSIGNMENT((#4770));
#4790=STYLED_ITEM('',(#4780),#4480);
#4800=DRAUGHTING_MODEL('',(#4790),#4680);
ENDSEC;
END-ISO-10303-21;
